Home Forums Musicians & D.I.Y. Artists Guitar Room They always come tab

Tagged: 

Viewing 5 posts - 1 through 5 (of 5 total)
  • Author
    Posts
  • #51471
    Avatar
    JPDman
    Participant

    I have never been able to find a decent tab for this song.

    Verse
    ----------------------------------------------------
    ----------------------------------------------------
    -------------7-7-7-7-7-7-7-7-9-9-9-9-9-9-9-9-9-9-9-7
    -5-5-5-5-5-7-7-7-7-7-7-7-7-9-9-9-9-9-9-9-9-9-9-9-7-7
    -5-5-5-5-5-5-5-5-5-5-5-5-5-7-7-7-7-7-7-7-7-7-7-7-5-5
    -3-3-3-3-3------------------------------------------
    
    -------------------------
    ----------0-0-0-0-0-x2---
    -xx-5-5-5-2-2-2-2-2------
    -xx-5-5-5-1-1-1-1-1------
    -xx-3-3-3-2-2-2-2-2------
    -------------------------
    
    They Always Come In Twos.... 
    -------------------------------
    -------------------------------
    -5-5-5-5-5-5-5-5-5-5-5-5-5-
    -5-5-5-5-5-5-5-5-5-5-5-5-5-
    -3-3-3-3-3-3-3-3-3-3-3-3-3-
    --------------------------------
    
    Chorus
    ----------------------------------
    ----------------------------------
    9-9-9-9-6-6-9-7-7-6-7-6-9/11-9
    ----------------------------------
    7-7-7-7-4-4-7-5-5-4-5-4-7/9--7
    ----------------------------------
    
    -------------------------------------
    ----------------10-9--------------
    9-9-9-9-6-6-9------9-9-7p6-7p6-
    -------------------------------------
    7-7-7-7-4-4-7------------------------
    -------------------------------------
    
    Part After Chorus
    --------------------------------
    -------7-7-7-7-7-7----------------
    -5~----7-7-7-7-7-7----------------
    -5~----7-7-7-7-7-7--------------
    -3~----5-5-5-5-5-5----------------
    ------------------------------
    
    Pre solo (Work out strumming yourself)
    ---0----0----0----0----0----0-------------------------
    ---2----3----2----0----2----3p2-3p2-------------------------
    ---2----2----2----2----2----2-------------------------
    ---2----2----2----2----2----2-----------------------
    ---0----0----0----0----0----0-----------------------
    ---------------------------------------------
    
    Solo
    -----------------------------------------------
    -17~~-17b-17-17b-17----------------------------
    -----------------------------------------------
    -----------------------------------------------
    ---------------------12-14-16--12-17-16--17-16-
    -----------------------------------------------
    
    -----------------------------------------------------------------
    -----------------------------------------------------------------
    ---------------------------------------------14--16b--16b--16b---
    ------------------------------141414-1616--16--------------------
    -12-1212-14-1414/16-1616-1717------------------------------------
    -----------------------------------------------------------------
    
    ------------------------------------------------------------ 
    ------------------------------------------------------------ 
    ----------------------14-1616-1414-------------------------- 
    ----------------14-16--------------1614-12-11-12-11-14b--14~ 
    -12-14-12-16-17--------------------------------------------- 
    ------------------------------------------------------------
    
    Guitar1
    Can't face the ... Play each chord around 20 times.
    -0-------0-------0-------------------
    -3-------0-------0-------------------
    -4-------7-------6-------------------
    -4-------7-------7-------------------
    -2-------5-------7-------------------
    -----------------5-------------------
    
    Guitar2
    Can't trace me...
    
    -----------------------------------------------------------
    -----17-17---17-------17---17-17b 17-17b-17-17b-17---------
    --14-------14--14--14--------------------------------------
    -----------------------------------------------------------
    -----------------------------------------------------------
    -----------------------------------------------------------
    
    repeat the chords and riff and then...(listen to song to get accurate timing)
    
    -0-0-0-0-0-0----5-5-7-7-5-5----------------- x4
    -0-0-0-0-0-0----5-5-5-5-5-5------------------
    -0-0-0-0-6-6----7-7-5-5-7-7------------------
    -7-9-9-9-7-7----7-7-7-7-7-7------------------
    -7-7-7-7-7-7----5-5-5-5-5-5------------------
    -5-5-5-5-5-5----------------------------------
    
    End on this...
    -----0~-----------------------------x5
    -----12~-----------------------------
    -----13~-----------------------------
    -----14~-----------------------------
    -----0~-----------------------------
    ----------------------------------

    Hope this helps

    • This topic was modified 5 years, 9 months ago by jeremiahjeremiah. Reason: corrected tab format
    #137624
    Avatar
    Matthoney
    Participant

    Looks amazing man. Can’t wait to play it.

    #137625
    Avatar
    Obseqio
    Participant

    I think the line is – “They always come and tease…” Good job on the tabs

    #137626
    Avatar
    JPDman
    Participant

    Sounds like ‘Twos’ to me. Also, it makes more sense because ‘twos’ rhymes with ‘use’. Its pretty hard to hear exactly what hes saying though.

    #137627
    Avatar
    JPDman
    Participant

    BTW I have made some changes to the tab =)

Viewing 5 posts - 1 through 5 (of 5 total)

You must be logged in to reply to this topic.