Home Forums Musicians & D.I.Y. Artists Guitar Room They always come Tab needs solo!!

Tagged: 

Viewing 1 post (of 1 total)
  • Author
    Posts
  • #51041
    Avatar
    Dino Youth
    Participant
    -------------------------------
    Dinosaur Jr - They Always come.
    -------------------------------
    
    Standard tuning. These are just the notes and chords shown in the correct order. Strumming pattern is not shown.
    
    VERSE:
    ------
    
    (repeat X2)
    
    G5 D5 E5 C5 D5 
    
    ------------------
    ------------------
    ----7--9--5--7----
    -5--7--9--5--7----
    -5--5--7--3--5----
    -3----------------
    
    TRANSMISSION BEFORE CHORUS:
    ---------------------------
    
    Strum this chord for two bars. Use pinky finger to alternate between the 1st fret and 3rd fret on the b string while strumming,
    
    Cmaj
    
    -0--------------
    -1-(3)----------
    -0--------------
    -2--------------
    -3--------------
    ----------------
    
    CHORUS:
    ------
    
    (repeat X2)
    
    ------------------------------------------5--4--0---------------------------
    ---------------------------------------------------2h3p2h3p2h3--------------
    -9--6--7--9--7--6--11-9--9--6--7--9------------------------------------
    -----------------------------------------------------------------------
    -7--4--5--7--5--4--9--7--7--4--5--7------------------------------------
    -----------------------------------------------------------------------
    
    FILLER AFTER THE CHORUS
    -----------------------
    
    Cmaj A5
    
    -0--------------
    -1--------------
    -0------2-------
    -2------2-------
    -3------0-------
    ----------------
    • This topic was modified 5 years, 9 months ago by jeremiahjeremiah. Reason: corrected tab format
Viewing 1 post (of 1 total)

You must be logged in to reply to this topic.