Home Forums Musicians & D.I.Y. Artists Guitar Room Start Choppin' solo tab

Tagged: 

Viewing 1 post (of 1 total)
  • Author
    Posts
  • #51480
    Avatar
    JPDman
    Participant

    Probably one of my fav solos ever.

    e|---------------------------------------------------------------------------------------9h10p9---------9-|
    B|--------------------------------------------------------------10h12p10-----10h12------------12-------|
    G|---------7-6--------------------------6h7p6h7s9---9h11--------------11------------------------------|
    D|--------------7--------7h9p7----7-----------------------------------------------------------------------|
    A|------------------7p9---------9--------------------------------------------------------------------------|
    E|-----------------------------------------------------------------------------------------------------------|
    
    e|---9h10h12p10p9-9h10h9----------------------------------------------------12--------------------------|
    B|-------------------------------12-10-----10--12b--12p10-----10-12b--12b------10-10 10 10-9-9-9-9-|
    G|--------------------------------------11---------------------11---------------------------------------------|
    D|--------------------------------------------------------------------------------------------------------------|
    A|--------------------------------------------------------------------------------------------------------------|
    E|--------------------------------------------------------------------------------------------------------------|
    
    e|--------------------------------------------------------------------17b------|
    B|--------------------------------------------------------------17-------------|
    G|-9---6h7p6--------------------------------1-2-2----16b-------------------|
    D|--------------6h7p6---4--2--2s4s2---2------------------------------------|
    A|------------------------------------------------------------------------------|
    E|------------------------------------------------------------------------------|
    • This topic was modified 5 years, 9 months ago by jeremiahjeremiah.
Viewing 1 post (of 1 total)

You must be logged in to reply to this topic.