Home Forums Musicians & D.I.Y. Artists Guitar Room Pebbles + Weeds tab!

Tagged: 

Viewing 4 posts - 1 through 4 (of 4 total)
  • Author
    Posts
  • #52042
    Avatar
    Ramone
    Participant

    Hey, first post here. I’ve been a Dinosaur Jr. fan ever since I first heard Out There about a 2 years ago and have since been buying every single record of theirs I could get my hands on. I really like Whatever’s Cool With Me and I think Pebbles + Weeds is a pretty awesome song and what I usually do when I find a song I like is to try and learn it on guitar unfortunately I couldn’t find any tabs for Pebbles + Weeds, but then I had a thought. Why don’t I try to tab it myself? So, without further ado, here’s my attempt:

    Intro
    
    E------------------------------------------------------------
    B------------------------------------------------------------
    G------------------------------------------------6-6-6-------
    D------8-----8---8----8-----8---8----8-----8-----6-6-6-4--4-4
    A--6-6---6-6---6----6---6-6---6----6---6-6---6---4-4-4-4--4-4
    E------------------------------------------------------2--2-2
    
    E------------------------------------------------------------
    B------------------------------------------------------------
    G------------------------------------------------------6--6-6
    D------8---9-8---8----8---9-8---8----8---9-8-----4-4-4-6--6-6
    A--6-6---6-----6----6---6-----6----6---6-----6---4-4-4-4--4-4
    E------------------------------------------------2-2-2-------
    
    Play that whole bit twice
    
    Verse
    
    E------------------------------------------------------------
    B------------------------------------------------------------
    G--8-8-8-8-8-11-11-11-11-11----------------------------------
    D--8-8-8-8-8-11-11-11-11-11-11-11--(X2)----------------------
    A--6-6-6-6-6-9--9--9--9--9--11-11----------------------------
    E---------------------------9--9-----------------------------
    
    E------------------------------------------------------------
    B------------------------------------------------------------
    G--8-8-8-8-8-11-11-11-11-11----------------------------------
    D--8-8-8-8-8-11-11-11-11-11--9-x-x-9-x-x-9-x-x-9-11----------
    A--6-6-6-6-6-9--9--9--9--9---9-x-x-9-x-x-9-x-x-9-11----------
    E----------------------------7-x-x-7-x-x-7-x-x-7-9-----------
    
    Play the whole verse twice then play the second part 2 more 
    times; transitioning into the bridge/interlude thing with this:
    
    E------------------------------------------------------------
    B------------------------------------------------------------
    G--------------------11-11-----------------------------------
    D--9-x-x-9-x-x-9-x-x-11-11-----------------------------------
    A--9-x-x-9-x-x-9-x-x-9--9------------------------------------
    E--7-x-x-7-x-x-7-x-x-----------------------------------------
    
    Bridge/Interlude (this part's a bit fuzzy)
    
    E------------------------------------------------------------
    B------------------------------------------------------------
    G--x-x-8-8-8-8-8-8-8-8-10-10-11-11---------------------------
    D--x-x-8-8-8-8-8-8-8-8-10-10-11-11---------------------------
    A--x-x-6-6-6-6-6-6-6-6-8--8--9--9----------------------------
    E------------------------------------------------------------
    
    E------------------------------------------------------------
    B------------------------------------------------------------
    G------------------------------10-10-11-11-------------------
    D--x-x-11-11-11-11-11-11-11-11-10-10-11-11-------------------
    A--x-x-11-11-11-11-11-11-11-11-8--8--9--9--------------------
    E--x-x-9--9--9--9--9--9--9--9--------------------------------
    
    Play twice, however don't play the last two chords of the second part
    the second time through
    
    The bit where J stops growling and plays a bit slower
    
    E------------------------------------------------------------
    B------------------------------------------------------------
    G--4---------------------------------------------------------
    D--4-(X8)-4------3-------------------------------------------
    A--2------4-(X4)-3-(X4)--------------------------------------
    E---------2------1-------------------------------------------
    
    Play 4 times, however 4th time through after playing the intial B chord
    play this:
    
    E------------------------------------------------------------
    B------------------------------------------------------------
    G----6--8----------------------------------------------------
    D----6--8-(hold)---------------------------------------------
    A----4--6----------------------------------------------------
    E------------------------------------------------------------
    
    "Feel the power..."
    • This topic was modified 5 years, 9 months ago by jeremiahjeremiah. Reason: corrected tab format
    #140346
    Avatar
    Obseqio
    Participant

    Welcome to the forum Ramone! I’m a guitar player too. I’ll check out the tabs when I get a chance. Anything that can be added to Dinosaur Jr tabs is a plus. I love everything Dinosaur JR, so Pebbles + Weeds goes without saying.

    #140347
    Avatar
    Matthoney
    Participant

    Pleasure to have you on the board Ramone! I’m glad you seem to be such a fan of Dinosaur. Is Whatever’s Cool With me your favorite record of theirs?

    I briefly tried out the tab and it seems pretty spot on. Made me go back and listen to the song; I forgot what a powerhouse it was.

    Look forward to seeing more tabs from you 🙂

    #230851
    jeremiah
    jeremiah
    Keymaster

    fixed tab format

Viewing 4 posts - 1 through 4 (of 4 total)

You must be logged in to reply to this topic.